All Burn In Hell icon

All Burn In Hell



НазваниеAll Burn In Hell
Дата конвертации29.07.2012
Размер7.06 Kb.
ТипДокументы
1. /All Burn In Hell.txt
2. /All You Need Is Rock And Roll.txt
3. /Broken Heart.txt
4. /In The City.txt
5. /Little Fighter.txt
6. /Radar Love.txt
7. /Wait.txt
8. /When The Children Cry.txt
9. /When the Children Cry2.txt
10. /Where Do We Run.txt
11. /Аккорды/When The Children Cry.
txt
TITLE: ALL BURN IN HELL 
WRITTEN: BRATTA, TRAMP
BY:WHITE LION
AlBUM:FIGHT TO SURVIVE


INTRO (2 times)
			     
e------------------------------------------------|
b------------------------------------------------|
g------------------------------------------------|
d--6-5-3-5-6--6-5-3-5-6-5-3--([5b])--------------|
a-3-3-3-3----4-4-4-4-----------------------------|
E------------------------------------------------|


VERSE: (4 times)
e------------------------------------------------|
b------------------------------------------------|
g------------------------------------------------|
d-----5--5-5-6----6--6-[6]p5p3-------------------|
a-3-33-33-3---4-44-44----------------------------|
E------------------------------------------------|

BRIDGE: (2 times)
         				    
e-------------------------------------------------------------------|
b-------------------------------------------------------------------|
g-------------------------------------------------------------------|
d-5---5--5-5-6-6---6--6---6-5------5--5-5-6-------------------------|
a-6-66-66-6----8-88-88--8----8-6-66-66-6----(----6------6---)-------|
E-------------------------------------------(8888-8-8888-8-6)-------|

CHORUS: (2 times)
							      
e------------------------------------------------------------------------|
b------------------------------------------------------------------------|
g------------------------------------------------------------------------|
d-6---6---6--6--5---5-56--65----6---6---6--6--5---5-56--65----(66666655)-|
a-8-888-888-88--6666666-----8-6-8-888-888-88--6666666-----8-6-(88888866)-|
E------------------------------------------------------------------------|

INTERLUDE: (2 times)
			     
e--------------------------------------------------|
b--------------------------------------------------|
g--------------------------------------------------|
d--6-5-3-5-6--6-5-3-5-6-5-3--(5tr6t17p6)-----------|
a-3-3-3-3----4-4-4-4-------------------------------|
E--------------------------------------------------|

VERSE: (4 times)
e--------------------------------------------------|
b--------------------------------------------------|
g--------------------------------------------------|
d-----5--5-5-6----6--6-[6]p5p3---------------------|
a-3-33-33-3---4-44-44------------------------------|
E--------------------------------------------------|

BRIDGE: (2 times)
					    
e-----------------------------------------------------------------|
b-----------------------------------------------------------------|
g-----------------------------------------------------------------|
d-5---5--5-5-6-6---6--6---6-5------5--5-5-6-----------------------|
a-6-66-66-6----8-88-88--8----8-6-66-66-6----(----6------6---)-----|
E-------------------------------------------(8888-8-8888-8-6)-----|

CHORUS: (2 times)
e-------------------------------------------------------------------------|
b-------------------------------------------------------------------------|
g-------------------------------------------------------------------------|
d-6---6---6--6--5---5-56--65----6---6---6--6--5---5-56--65----(66666655)--|
a-8-888-888-88--6666666-----8-6-8-888-888-88--6666666-----8-6-(88888866)--|
E-------------------------------------------------------------------------|

INTERLUDE:
e--------------------------------------------------|
b--------------------------------------------------|
g--------------------------------------------------|
d-6-6-6-6-6--6-6-6-6-6--6-6-6-6-6--6-6-6-6-6-------|
a-8-8-8-8-8--8-8-8-8-8--8-8-8-8-8--8-8-8-8-8-------|
E--------------------------------------------------|
SOLO:
						
e-10p9-------------------------------------------------|
b-----6-6-8-9-9br--------------------------------------|
g----------------6-6h7h9t11p9p7p6-[6brbr]--------------|
d----------------------------------------9p7p6-[6]-----|
a------------------------------------------------------|
E------------------------------------------------------|

e------------------------------------------------------|
b-17b-17b-17b-17-19-20-19br----------------------------|
g--------------------------17-17-19-17h19p17p16h17-----|
d------------------------------------------------------|
a------------------------------------------------------|
E------------------------------------------------------|

e----------------------------------------------------------------------|
b----------------------------------------------------------------------|
g-16b-16b-16b-12h13h15p13p12h13p12-12-----------------------12h13p12---|
d---------------------------------15-15p13p12h13p12-12h13h15-----------|
a----------------------------------------------------------------------|
E----------------------------------------------------------------------|

e--------------------------------------------------|
b--------------------------------------------------|
g---15p13p12-15p13p12-13-12------------------------|
d-15-----------------------------------------------|
a--------------------------------------------------|
E--------------------------------------------------|

e----------------------------------------------------|
b--------------13-14-16-14-14h16p14p13h14p13--16-13--|
g------12-13-15--------------------------------------|
d-13-15----------------------------------------------|
a----------------------------------------------------|
E----------------------------------------------------|

e---------13h15h16-16p15p13h15p13--13--------------------------------------------|
b-13h14h16-----------------------16--16p14p13h14p13--13--------------------------|
g--------------------------------------------------15---15p13p12h13p12h13-13-12~-|
d--------------------------------------------------------------------------------|
a--------------------------------------------------------------------------------|
E--------------------------------------------------------------------------------|

e-------------------------13h15h16-15h16h18-18-16-20b---------|
b-----------------13h14h16------------------------------------|
g---------12h13h15--------------------------------------------|
d-12h13h15----------------------------------------------------|
a-------------------------------------------------------------|
E-------------------------------------------------------------|

OUTRO: (4 times)
e-------------------------------------------------------------------------|
b-------------------------------------------------------------------------|
g-------------------------------------------------------------------------|
d-6---6---6--6--5---5-56--65----6---6---6--6--5---5-56--65----(66666655)--|
a-8-888-888-88--6666666-----8-6-8-888-888-88--6666666-----8-6-(88888866)--|
E-------------------------------------------------------------------------|

OUTRO:
e--------------------------------------------------|
b--------------------------------------------------|
g--------------------------------------------------|
d-6-6-6-6-6--6-6-6-6-6--6-6-6-6-6--6-6-6-6-6-------|
a-8-8-8-8-8--8-8-8-8-8--8-8-8-8-8--8-8-8-8-8-6-5---|
E-----------------------------------------------3--|



Похожие:

All Burn In Hell iconSentenced To Burn Follow the one

All Burn In Hell iconДокументы
1. /All Burn In Hell.txt
2. /All You Need Is...

All Burn In Hell iconCowboys From Hell

All Burn In Hell iconIn a web like hell How did I reach this place

All Burn In Hell iconBorn In a casket Enter the crypts of hell, to impregnate the dead

All Burn In Hell iconCaptor Of Sin Halls of Hell spread its wings as I penetrate your soul

All Burn In Hell iconДокументы
1. /My Heaven Is Your Hell.doc
All Burn In Hell iconДокументы
1. /hell.txt
All Burn In Hell iconДокументы
1. /hell.txt
All Burn In Hell iconДокументы
1. /Hotter Than Hell - 1974.doc
Разместите кнопку на своём сайте:
Документы


База данных защищена авторским правом ©podelise.ru 2000-2014
При копировании материала обязательно указание активной ссылки открытой для индексации.
обратиться к администрации
Документы