Where Do We Run icon

Where Do We Run



НазваниеWhere Do We Run
Дата конвертации29.07.2012
Размер7.17 Kb.
ТипДокументы
1. /All Burn In Hell.txt
2. /All You Need Is Rock And Roll.txt
3. /Broken Heart.txt
4. /In The City.txt
5. /Little Fighter.txt
6. /Radar Love.txt
7. /Wait.txt
8. /When The Children Cry.txt
9. /When the Children Cry2.txt
10. /Where Do We Run.txt
11. /Аккорды/When The Children Cry.
txt
TITLE: WHERE DO WE RUN
WRITTEN BY: BRATTA, TRAMP
BY:WHITE LION
ALBUM:FIGHT TO SURVIVE


INTRO: (2 times)		    
e--------------------------------------------------|
b--------------------------------------------------|
g-7-7-----7-7--7-7-7------------7-7-(7tr12)-([7b])-|
d-7-7-----7-7--7-7-7-8-8--8-8-8-7-7----------------|
a-5-5---8-5-5--5-5-5-8-8--8-8-8-5-5----------------|
E----5-8-------------6-6--6-6-6--------------------|

VERSE: (4 times)		  
e--------------------------------------------------|
b--------------------------------------------------|
g-7-7-----7-7--7-7-7------------7-7-(7tr12)--------|
d-7-7-----7-7--7-7-7-8-8--8-8-8-7-7----------------|
a-5-5---8-5-5--5-5-5-8-8--8-8-8-5-5----------------|
E----5-8-------------6-6--6-6-6--------------------|


BRIDGE: (2 times)                
e--------------------------------------------------|
b--------------------------------------------------|
g-7-7--7-7-7--7-7------------7-7---(5tr12)---------|
d-7-7--7-7-7--7-7-8-8--8-8-8-7-7--5----------------|
a-5-5--5-5-5--5-5-8-8--8-8-8-5-5--5----------------|
E-----------------6-6--6-6-6------3----------------|

CHORUS:
e--------------------------------------------------------------------|
b--------------------------------------------------------------------|
g-5-5------5-5--------------------------------------------5-5--------|
d-5-5--5-5-5-5--5-5-7-----7-----7-5-5--3-----3-----3-5-5--5-5--5-----|
a-3-3--3-3-2-2--2-2-7-----7-----7-5-5--3-----3-----3-5-5--3-3--5-----|
E-------------------5-5-5-5-5-5-5-3-3--1-1-1-1-1-1-1-3-3-------3-----|


VERSE: (2 times)		    
e--------------------------------------------------|
b--------------------------------------------------|
g-7-7-----7-7--7-7-7------------7-7-([7b])---------|
d-7-7-----7-7--7-7-7-8-8--8-8-8-7-7----------------|
a-5-5---8-5-5--5-5-5-8-8--8-8-8-5-5----------------|
E----5-8-------------6-6--6-6-6--------------------|

BRIDGE: (2 times)                II
e--------------------------------------------------|
b--------------------------------------------------|
g-7-7--7-7-7--7-7------------7-7---(5tr12)---------|
d-7-7--7-7-7--7-7-8-8--8-8-8-7-7--5----------------|
a-5-5--5-5-5--5-5-8-8--8-8-8-5-5--5----------------|
E-----------------6-6--6-6-6------3----------------|

CHORUS:
e--------------------------------------------------------------------|
b--------------------------------------------------------------------|
g-5-5------5-5---------------------------------5---------------------|
d-5-5--5-5-5-5--5-5-7--7-7-5--5-5-3--3-3--5-5--5-------------55555---|
a-3-3--3-3-2-2--2-2-7--7-7-5--5-5-3--3-3--5-5--3-333-333-333-55555---|
E-------------------5--5-5-3--3-3-1--1-1--3-3----------------33333---|

SOLO: 

e--------------------------------------------------------|
b--------------------------------------------------------|
g-t9p2h5-t9p2h5-t10p2h5-t9p2h5-t7p2h5-t9p2h5-t10p2h5-t9--|
d--------------------------------------------------------|
a--------------------------------------------------------|
E--------------------------------------------------------|

2.
e-------------------------------------------------------|
b-------------------------------------------------------|
g-t9p2h5-t9p2h5-t10p2h5-t9p2h5-t12p2h5-t10p2h5-t109p4~-|
d-------------------------------------------------------|
a-------------------------------------------------------|
E-------------------------------------------------------|

3.
e------------------------------------------------------------|
b------------------------------------------------------------|
g-t9p2h5-t9p2h5-t9p2h5-t7p2h5-t9p2h5-t7p2h5-t9p2h5-t10p2h5-t9|
d------------------------------------------------------------|
a------------------------------------------------------------|
E------------------------------------------------------------|

4.
e-----------------------------------------------------------|
b-----------------------------------------------------------|
g-t9p2h5-t9p2h5-t10p2h5-t9p2h5-t10p2h5-t9p2h5-t12p5p2~------|
d-----------------------------------------------------------|
a-----------------------------------------------------------|
E-----------------------------------------------------------|

e--------------------------------------------------|
b--------------------------------------------------|
g-4 [4b]/5t10p5h7t9p5h7t9p5h7t9p5h7p4-/5-/7t12p7---|
d--------------------------------------------------|
a--------------------------------------------------|
E--------------------------------------------------|

e-----------------15p12h13p12--12-----------12h13h15p13p12----------------|
b-/15brp13---13-15-----------15--15p12h13h15--------------15p13p12--------|
g---------14---------------------------------------------------------14~--|
d-------------------------------------------------------------------------|
a-------------------------------------------------------------------------|
E-------------------------------------------------------------------------|

  w
e--------20b-20br-20-19-17---17-17h20p17h19p17----------------------|
b-------------------------20b-----------------20p17h19p17-----------|
g-0----0-------------------------------------------------19brp17h19-|
d----/-------------------------------------------------------------|
a---/--------------------------------------------------------------|
E-------------------------------------------------------------------|

e---------------------------------------------------|
b---------------------------17h19h20p19p17----------|
g-17h19p1716-16br--16h17h19--------------19--------|
d---------------------------------------------------|
a---------------------------------------------------|
E---------------------------------------------------|

e--------------------------------------------------|
b--------------------------------------------------|
g------16h17h19p17p16------------------------------|
d-17h19--------------19p17-----17------------------|
a--------------------------1719--1917--------------|
E------------------------------------201917--------|

e--------------------------20b----------------------|
b------------------17h19h20-------------------------|
g-16h17h19-16h17h19---------------------------------|
d---------------------------------------------------|
a---------------------------------------------------|
E---------------------------------------------------|

OUTRO:
e--------------------------------------------------------------------|
b--------------------------------------------------------------------|
g-5-5------5-5---------------------------------5-5-------------------|
d-5-5--5-5-5-5--5-5-7--7-7-5--5-5-3--3-3--5-5--5-5-5-----------------|
a-3-3--3-3-2-2--2-2-7--7-7-5--5-5-3--3-3--5-5--3-3-5-----------------|
E-------------------5--5-5-3--3-3-1--1-1--3-3------3-----------------|


e-------------------------------19br-----------20b-20-19-17b---------|
b-----------------12h14h15-17-------16b------------------------------|
g---------11h12h14------------19-------19p17h19----------------------|
d-11h12h14-----------------------------------------------------------|
a--------------------------------------------------------------------|
E--------------------------------------------------------------------|



Похожие:

Where Do We Run iconEven if you run I will find you I decided I wanted you

Where Do We Run iconFuck you all!!! Running out of ways to run

Where Do We Run iconДокументы
1. /run.txt
Where Do We Run iconДокументы
1. /run.txt
Where Do We Run iconMy beautiful new watch had run eighteen months without losing or gaining, and without breaking any part of its machinery or stopping

Where Do We Run iconДокументы
1. /All Burn In Hell.txt
2. /All You Need Is...

Where Do We Run iconДокументы
1. /A Place For My Head.txt
2. /Breaking The...

Where Do We Run iconДокументы
1. /Lenny Kravitz/Lenny Kravitz/1989 - Let Love Rule/01-Sittin' on Top Of The World.txt
Where Do We Run iconДокументы
1. /Perl programing/annot.txt
2. /Perl programing/begin.txt
Where Do We Run iconДокументы
1. /1965b - Rubber Soul/01 - Drive My Car.txt
2. /1965b...

Разместите кнопку на своём сайте:
Документы


База данных защищена авторским правом ©podelise.ru 2000-2014
При копировании материала обязательно указание активной ссылки открытой для индексации.
обратиться к администрации
Документы