Radar Love icon

Radar Love



НазваниеRadar Love
Дата конвертации27.08.2012
Размер10.29 Kb.
ТипДокументы
1. /All Burn In Hell.txt
2. /All You Need Is Rock And Roll.txt
3. /Broken Heart.txt
4. /In The City.txt
5. /Little Fighter.txt
6. /Radar Love.txt
7. /Wait.txt
8. /When The Children Cry.txt
9. /When the Children Cry2.txt
10. /Where Do We Run.txt
11. /Аккорды/When The Children Cry.
txt
TITLE: RADAR LOVE
BY:WHITE LION
ALBUM:BIG GAME

Legend
v = vibrato
b = bend
B = bend ALMOST one whole step
h = hammer-on
p = pull-off
/ = slide
~ = sustain
r = return


Intro
								Drum Fill Starts
E|---------------------------------------------------------------|
B|---------------------------------------------------------------|
G|----------------------------------2~-------4~9~~~~~~~~~~~~~~~--|
D|--2~4v~~~~~~~---2~------------2~4~--2v~~~2~4~9~~~~~~~~~~~~~~~--|
A|4~------------4~--2v~~~~~~~-4~-----------0~2~7~~~~~~~~~~~~~~~--|
E|---------------------------------------------------------------|

E|---------------------------------------------------------------|
B|---------------------------------------------------------------|
G|9~~~~~~~~--9~~~~~~~~--11~~~~~~~~~~~~~~~~--9~~~~~~~~--11~~~~~~~~|
D|9~~~~~~~~--9~~~~~~~~--11~~~~~~~~~~~~~~~~--9~~~~~~~~--11~~~~~~~~|
A|---------------------------------------------------------------|
E|---------------------------------------------------------------|

E|------------------|
B|--11~~~~~~~~------|
G|--11~~~~~~~~--11--|
D|-----------------9|
A|------------------|
E|------------------|


Verse 1
УIТve been drivinТ all night my handsТre wet on the wheelЕФ
E|--------------|
B|7-5-4-2-5-4/2~|
G|6-4-4-2-4-4/2~|
D|--------------|
A|--------------|
E|--------------|
УThereТs a voice in my head that drives my heelЕФ
E|-------------------|
B|16~-----16-14------|
G|16~14v~-16-14------|
D|---------------16v~|
A|-------------------|
E|-------------------|
УAnd my baby calls, she says she needs me here!Ф
E|-----------------|
B|-----------------|
G|-----------------|
D|---2-------------|
A|-----4-3-2-------|
E|0h2-2-0-0-0-5b6r5|
УAnd itТs half past four and IТm shifting gearФ
E|-----------------------------|
B|16161614--16161614--99911----|
G|16161614--16161614--99911----|
D|--------------------------9/0|
A|--------------------------9/0|
E|-----------------------------|


Pre-Chorus

E|-----------------------------------------|
B|-----------------------------------------|
G|----4~~~-------------------4~~~4~4~6~~6~~|
D|2~~~4~~~4~~~-------16v-2~~~4~~~4~4~6~~6~~|
A|2~~~2~~~4~~~----16-----2~~~2~~~2~2~4~~4~~|
E|0~~~----2~~~-14--------0~~~--------------|


Chorus

E|----------------------------|
B|----------------------------|
G|7~~~------------7~~~--------|
D|7~~~7~~~2~~~4~~~7~~~7~~~2~~~|
A|5~~~7~~~2~~~4~~~5~~~7~~~2~~~|
E|----5~~~0~~~2~~~----5~~~0~~~|


Guitar Fill

E|----------------------------------------|
B|----------------------------------------|
G|9~~~~~~~~--9~~~~~~~~--11~~~~~~~~~~~~~~~~|
D|9~~~~~~~~--9~~~~~~~~--11~~~~~~~~~~~~~~~~|
A|----------------------------------------|
E|----------------------------------------|


Verse 2
УRadioТs playinТ some forgotten songЕФ
E|-------------------|
B|-----10------------|
G|x7h9x--4--5--9b10r9|
D|-------------------|
A|-------------------|
E|-------------------|
УBrenda LeeТs cominТ on strongЕФ
E|--------------------------------------|
B|--------------------------------------|
G|--------------------------------------|
D|9-9p7---16b17r16--14b15r14--12b13r12~~|
A|--------------------------------------|
E|--------------------------------------|
УThe road has got me hypnotizedЕФ
E|12p10h12/10p8h10/8p6h8|
B|----------------------|
G|----------------------|
D|----------------------|
A|----------------------|
E|----------------------|
УAnd IТm spinning into a new sunrise!Ф
E|---------|
B|16~~~----|
G|16~~~----|
D|------9/0|
A|------9/0|
E|---------|


Pre-Chorus

E|--------------------------------------|
B|--------------------------------------|
G|----4~~~-------------------4~~~6~6~6~6|
D|2~~~4~~~4~~~-------16v-2~~~4~~~6~6~6~6|
A|2~~~2~~~4~~~----16-----2~~~2~~~4~4~4~4|
E|0~~~----2~~~-14--------0~~~-----------|


Chorus

E|----------------------------|
B|----------------------------|
G|7~~~------------7~~~--------|
D|7~~~7~~~2~~~4~~~7~~~7~~~2~~~|
A|5~~~7~~~2~~~4~~~5~~~7~~~2~~~|
E|----5~~~0~~~2~~~----5~~~0~~~|


Guitar Solo 1- I will finish this, in the next version!
	*Slowly release as you slide off*
E|------------|---10-9 -10-12-10-9 -9h10bp9---10-9 -10-12-10-9 -9h10----|bp9
B|----------7B|11-11-11-11-11-11-11--------11-11-11-11-11-11-11---------|
G|6B~---------|---------------------------------------------------------|
D|6B~*5B*~/0--|---------------------------------------------------------|
A|------------|---------------------------------------------------------|
E|------------|---------------------------------------------------------|

E|--8-7-8-10-8-7-7h8bp9--8-7-8-10-8-7-7h8bp9---12-11-12-14-12-11-11h12b-|
B|9-9-9-9-9 -9-9-------9-9-9-9-9 -9-9-------13-13-13-13-13-13-13--------|
G|----------------------------------------------------------------------|
D|----------------------------------------------------------------------|
A|----------------------------------------------------------------------|
E|----------------------------------------------------------------------|

E|p11---12-11-12-14-12-11-11h12bp11|M0RE--T0--C0ME|
B|---13-13-13-13-13-13-13----------|M0RE--T0--C0ME|
G|---------------------------------|M0RE--T0--C0ME|
D|---------------------------------|M0RE--T0--C0ME|
A|---------------------------------|M0RE--T0--C0ME|
E|---------------------------------|M0RE--T0--C0ME|
	 (16th note picking)
E|-------------------------------------------------------------------|
B|-------------------------------------------------------------------|
G|3/4-444444444444455555555555556666666666666777777777777-9b~~~~~~/0~
D|-------------------------------------------------------------------|
A|-------------------------------------------------------------------|
E|-------------------------------------------------------------------|

E|----------------|DRUM-FILL|-------------------------------------|
B|----------------|DRUM-FILL|-------------------------------------|
G|6-6-6-6-6-6-6~~~|DRUM-FILL|-------------------------------------|
D|6-6-6-6-6-6-6~~~|DRUM-FILL|-------------------------------------|
A|4-4-4-4-4-4-4~~~|DRUM-FILL|----3-2~~-----2--------3-2~~-----2---|
E|----------------|DRUM-FILL|2-5-------2-5---2--2-5-------2-5---2-|

E|----3-2h3p2h3p2h3p2h3p2h3-----2------3-2h3p2h3p2h3p2h3p2h3-----2--|
B|2-5-----------------------2-5----2-5-----------------------2-5----|
G|------------------------------------------------------------------|
D|------------------------------------------------------------------|
A|------------------------------------------------------------------|
E|------------------------------------------------------------------|

E|------------------------------------------------------------------|
B|------------------------------------------------------------------|
G|------------------------------------------------------------------|
D|------------2-3-4----------------------2~~~~~~~~~~~~~~~~~~~~~~~~~~|
A|----3-2-3-4-------4------3-2-3-4---2-4-2~~~~~~~~~~~~~~~~~~~~~~~~~~|
E|2-5------------------2-5---------5-----0~~~~~~~~~~~~~~~~~~~~~~~~~~|


Guitar Fill

E|-----------------|
B|-----------------|
G|9~~~~~~~~~~~~~~~~|
D|9~~~~~~~~~~~~~~~~|
A|-----------------|
E|-----------------|


Verse 3
УNo more speed IТm almost thereЕФ
E|7-5-----5----------|
B|----7~8---7-5~~~~~~|
G|-------------------|
D|-------------------|
A|-------------------|
E|-------------------|
УGottaТ keep cool now, gottaТ take careЕФ
E|-------------------|
B|-------------------|
G|7-5-3h5p3p2~-------|
D|-------------3/5~~~|
A|-------------------|
E|-------------------|
УLast car to pass, here I goЕФ
E|7h8B~~~~~~~~~~~~|
B|----------------|
G|----------------|
D|----------------|
A|----------------|
E|----------------|
УAnd the line of the cars goes down real slowЕФ
E|-----------------|
B|7h8~~~10p8p7~-3/5|
G|-----------------|
D|-----------------|
A|-----------------|
E|-----------------|
УAnd the radio played some forgotten songЕФ
E|--------------------------------|
B|5h7h8p7p5/3h5p3p0h2h3p2p0-------|
G|--------------------------2/1~~~|
D|--------------------------------|
A|--------------------------------|
E|--------------------------------|
УAnd Brenda LeeТs cominТ on strongЕФ
E|--------------------|
B|--------------------|
G|--------------------|
D|7-4-2---------------|
A|------3-2-2v~~~~~~~~|
E|--------------------|
УAnd the newsman sang his same songЕФ
E|12p11p9h11bp9h11bp9h11b12r11p9/7~|
B|---------------------------------|
G|---------------------------------|
D|---------------------------------|
A|---------------------------------|
E|---------------------------------|
УOh, one more radar lover gone!Ф
E|11b/0--11b/0--11b/0--11b/0|
B|--------------------------|
G|--------------------------|
D|--------------------------|
A|--------------------------|
E|--------------------------|


Pre-Chorus


E|----------------------------------|
B|----------------------------------|
G|----4~~~-------------4~~4~~6~6~6~6|
D|2~~~4~~~4~~~3~~~-2~~~4~~2~~6~6~6~6|
A|2~~~2~~~4~~~3~~~-2~~~2~~2~~4~4~4~4|
E|0~~~----2~~~1~~~-0~~~-------------|


Chorus

E|-------------------------------------------------------------------|
B|-------------------------------------------------------------------|
G|7~~~------------7~~~-------------------7~~~------------7~~~--------|
D|7~~~7~~~2~~~4~~~7~~~7~~~2~~~4-4-4-4-4-47~~~7~~~2~~~4~~~7~~~7~~~2~~~|
A|5~~~7~~~2~~~4~~~5~~~7~~~2~~~4-4-4-4-4-45~~~7~~~2~~~4~~~5~~~7~~~2~~~|
E|----5~~~0~~~2~~~----5~~~0~~~2-2-2-2-2-2----5~~~0~~~2~~~----5~~~0~~~|


Outro
E|------------------------------------------3-2h3p2h3p2h3p2h3p2h3-----2-|
B|--------------------------------------2-5-----------------------2-5---|
G|----------------------------------------------------------------------|
D|----------------------------------------------------------------------|
A|----3-2~~-----2--------3-2~~-----2------------------------------------|
E|2-5-------2-5---2--2-5-------2-5---2----------------------------------|

E|----3-2h3p2h3p2h3p2h3p2h3-----2-----------------------------------|
B|2-5-----------------------2-5-------------------------------------|
G|------------------------------------------------------------------|
D|-------------------------------------3-2h3p2h3p2h3p2h3p2h3-----2--|
A|---------------------------------2-5-----------------------2-5---2|
E|------------------------------------------------------------------|



Похожие:

Radar Love iconДокументы
1. /love/LOVE.RTF
Radar Love iconДокументы
1. /Again.txt
2. /Beautiful.txt
3....

Radar Love iconДокументы
1. /All Burn In Hell.txt
2. /All You Need Is...

Radar Love iconSpectroscopy letters, 2(12), рр. 36l-367 (1969) radar testing of the relative velocity of light in space
Аннотация: Опубликованные данные межпланетных радарных измерений представляют свидетельство того, что относительная скорость света...
Radar Love iconДокументы
1. /Lenny Kravitz/Lenny Kravitz/1989 - Let Love Rule/01-Sittin' on Top Of The World.txt
Radar Love iconLove

Radar Love iconFeel For You You were my first love

Radar Love iconFrom russia with love

Radar Love iconFrom russia with love

Radar Love iconFor Esme—with Love and Squalor

Разместите кнопку на своём сайте:
Документы


База данных защищена авторским правом ©podelise.ru 2000-2014
При копировании материала обязательно указание активной ссылки открытой для индексации.
обратиться к администрации
Документы