When the Children Cry2 icon

When the Children Cry2



НазваниеWhen the Children Cry2
Дата конвертации27.08.2012
Размер6.67 Kb.
ТипДокументы
1. /All Burn In Hell.txt
2. /All You Need Is Rock And Roll.txt
3. /Broken Heart.txt
4. /In The City.txt
5. /Little Fighter.txt
6. /Radar Love.txt
7. /Wait.txt
8. /When The Children Cry.txt
9. /When the Children Cry2.txt
10. /Where Do We Run.txt
11. /Аккорды/When The Children Cry.
txt
When the Children Cry
White Lion

Intro:

e|0-------12-------|10-------8--7----|10-------8-------|7----------3--2--|
B|--0---0----0---0-|---0---0---0--0--|---0---0---0---0-|---0---0---------|
G|----0--------0---|-----0-----------|-----0-------0---|-----0-----------|
D|-----------------|-----------------|-----------------|-----------------|
A|-----------------|-----------------|-----------------|-----------------|
E|0----------------|-----------------|-----------------|-----------3--2--|

e|0-------12-------|10-------8--7----|10-------8-------|7----------------|
B|--0---0----0---0-|---0---0---0--0--|---0---0---0---0-|---0---0---0--3--|
G|----0--------0---|-----0-----------|-----0-------0---|-----0-----------|
D|-----------------|-----------------|-----------------|-----------------|
A|-----------------|-----------------|-----------------|-----------------|
E|0----------------|-----------------|-----------------|-----------3--2--|
  
  E/B               Bmin              C                 G
e|---------0-------|---------0-------|-------------0---|-3---------------|
B|-----------0---0-|-3-----3---3-----|1--------1h3---0-|---3---3---3---3-|
G|------0------0---|---4---------4---|--0---0----------|-----0-----------|
D|----4------------|-----4---------4-|----2------------|-----------------|
A|--2--------------|-2---------------|3----------------|-----------------|
E|0----------------|-----------------|-----------------|-3-------3---2---|

  E/B               Bmin              C                 D
e|---------0-------|---------0-------|-------------0---|-2-------2h3p2-0-|
B|-----------0---0-|-3-----3---3-----|1--------1h3---0-|---3---3--------3|
G|------0------0---|---4---------4---|--0---0----------|-----2-----------|
D|----4------------|-----4---------4-|----2------------|-0---------------|
A|--2--------------|-2---------------|3----------------|-----------------|
E|0----------------|-----------------|-----------------|-----------------|

    Bm7                 (nh)            
e|--5------5---10--|-----------------|
B|----7--------10--|-(7)-------------|
G|------7----------|-----------------|
D|--0--------------|-----------------|
A|-----------------|-----------------|
E|-----------------|-----------------|


1st Verse:

            
  E/B               Bmin              C                 Bmin
e|---------0-------|---------0-------|-------------0---|---------0-------|
B|-----------0---0-|-3-----3---3-----|1--------1h3---0-|-3-----3---3-----|
G|------0------0---|---4---------4---|--0---0----------|---4---------4---|
D|----4------------|-----4---------4-|----2------------|-----4---------4-|
A|--2--------------|-2---------------|3----------------|-2---------------|
E|0----------------|-----------------|-----------------|-----------------|


           C                 G                 E/B               D
e|-------------0---|3----------------|---------0-------|-2-------3p2-----|
B|1--------1h3---0-|--0---0----0---0-|-----------0---0-|---3---3-----3---|
G|--0---0----------|----0------------|------0------0---|-----2---------2-|
D|----2------------|-----------------|----4------------|-0---------------|
A|3----------------|-----------------|--2--------------|-----------------|
E|-----------------|3--------3---2---|0----------------|-----------------|


        E/B               Bmin              C                 Bmin
e|---------0-------|---------0-------|-------------0---|---------0-------|
B|-----------0---0-|-3-----3---3-----|1--------1h3---0-|-3-----3---3-----|
G|------0------0---|---4---------4---|--0---0----------|---4---------4---|
D|----4------------|-----4---------4-|----2------------|-----4---------4-|
A|--2--------------|-2---------------|3----------------|-2---------------|
E|0----------------|-----------------|-----------------|-----------------|


    
  C                 G                 E/B               D
e|-------------0---|3----------------|---------0-------|-2-------3p2-----|
B|1--------1h3---0-|--0---0----0---0-|-----------0---0-|---3---3-----3---|
G|--0---0----------|----0------------|------0------0---|-----2---------2-|
D|----2------------|-----------------|----4------------|-0---------------|
A|3----------------|-----------------|--2--------------|-----------------|
E|-----------------|3--------3---2---|0----------------|-----------------|


          C                 D                 G                 Bmin
e|0------------0---|-2-------3p2-----|3-----3---2--0---|---------0-------|
B|--1------1h3---0-|---3---3-----3---|--0-----0------0-|-3-----3---3-----|
G|------0----------|-----2---------2-|----0------------|---4---------4---|
D|----2------------|-0---------------|-----------------|-----4---------4-|
A|3----------------|-----------------|-----------------|-2---------------|
E|-----------------|-----------------|3----------------|-----------------|


       
  C                 G                 E/B               D    (slow down & pause)
e|-------------0---|3----------------|---------0-------|-2------3-------2|
B|1--------1h3---0-|--0---0----0---0-|-----------0---0-|---3---3--3---3--|
G|--0---0----------|----0------------|------0------0---|-----2------2----|
D|----2------------|-----------------|----4------------|-0---------------|
A|3----------------|-----------------|--2--------------|-----------------|
E|-----------------|3--------3---2---|0----------------|-----------------|

chorus:

  E/B               Bmin              C                 G
e|---------0-------|---------0-------|-------------0---|3----------------|
B|-----------0---0-|-3-----3---3-----|1--------1h3---0-|--3---3----3---3-|
G|------0------0---|---4---------4---|--0---0----------|----0------------|
D|----4------------|-----4---------4-|----2------------|-----------------|
A|--2--------------|-2---------------|3----------------|-----------------|
E|0----------------|-----------------|-----------------|3--------3---2---|


  
  E/B               Bmin              C                 D
e|---------0-------|---------0-------|-------------0---|-2-------2h3p2-0-|
B|-----------0---0-|-3-----3---3-----|1--------1h3---0-|---3---3--------3|
G|------0------0---|---4---------4---|--0---0----------|-----2-----------|
D|----4------------|-----4---------4-|----2------------|-0---------------|
A|--2--------------|-2---------------|3----------------|-----------------|
E|0----------------|-----------------|-----------------|-----------------|

    Bm7              (nh)            
e|--5------5---10--|-----------------|
B|----7--------10--|-(7)-------------|
G|------7----------|-----------------|
D|--0--------------|-----------------|
A|-----------------|-----------------|
E|-----------------|-----------------|



Похожие:

When the Children Cry2 iconДокументы
1. /All Burn In Hell.txt
2. /All You Need Is...

When the Children Cry2 iconДокументы
1. /Children Of Bodom/1997 - Something Wild.doc
2. /Children...

When the Children Cry2 iconChildren

When the Children Cry2 iconChildren of the Korn Attention all parents!

When the Children Cry2 iconNew Abortion I'm ethereal, my children are legion, serial

When the Children Cry2 iconDenying the lying a million children fighting

When the Children Cry2 iconДокументы
1. /Children.doc
When the Children Cry2 iconДокументы
1. /children.txt
When the Children Cry2 iconДокументы
1. /children-e.txt
When the Children Cry2 iconДокументы
1. /Forgotten Children.doc
Разместите кнопку на своём сайте:
Документы


База данных защищена авторским правом ©podelise.ru 2000-2014
При копировании материала обязательно указание активной ссылки открытой для индексации.
обратиться к администрации
Документы