90x60x90 аккорды песни ( Пурген ) icon

90x60x90 аккорды песни ( Пурген )



Название90x60x90 аккорды песни ( Пурген )
Дата конвертации28.08.2012
Размер134.7 Kb.
ТипДокументы

http://www.Rockexplorer.narod.ru - - -

Пурген

90x60x90 - аккорды песни ( Пурген )


Am C G

Я - простой обычный обыватель и беру от жизни всё,

Am C G

Я не знаю, что такое счастье и как любят горячо.

Am C G

Мне не важно как зовут тебя и какие у тебя дела

Am C G

Hе хочу я знать твоих проблем - кроме секса у меня нет тем.


припев:

Am Dm G C

Ведь моя мечта - это просто 90-60-90

Am Dm E Am

Вы видите, как это просто: 90-60-90.


2:

Мой мозг переходит к член: я хочу иметь их всех

Пухлые губы, стройные ноги и похотливо сексуальные стоны.


Твои розовые губки между ног поглотят напряжённого друга

Ты вся дрожишь и в экстазе стонешь, я сжимаю твою грудь, ты кричишь:


припев:


Вступление:

E-----------------------------------------------------

B-----------------------------------------------------

G-----------------------------------------------------

D-------------------------------------------9-8-9-8-9-

A-5-5-5-7---5-5-5-7---5-5-5-7-5-5-5-7-5-5-5-7-6-7-6-7-

E-3-3-3-5---3-3-3-5---3-3-3-5-3-3-3-5-3-3-3-----------


E----------------------------------------------------------------------

B----------------------------------------------------------------------

G----------------------------------------------------------------------

D-------------------7-7-7-7----------------------------------7-7-------

A-5-5-5-5--7-7-7-7--5-5-5-5--7-7-7-7--5-5--5-5-5-5--7-7-7-7--5-5-7-7-7-

E-3-3-3-3--5-5-5-5-----------5-5-5-5--3-3--3-3-3-3--5-5-5-5------5-5-5-


E-------------------------------------------------------------------

B-------------------------------------------------------------------

G-------------------------------------------------------------------

D---------------------------------------------------------9-8-9-8-9-

A-5-5-5-7-7-7-7-7--5-5-5-7-7-7-7-7--5-5-5-7-5-5-5-7-5-5-5-7-6-7-6-7-

E-3-3-3-5-5-5-5-5--3-3-3-5-5-5-5-5--3-3-3-5-3-3-3-5-3-3-3-----------


Дальше идёт куплет:

E----------------------------------------------------

B----------------------------------------------------

G----------------------------------------------------

D----------------------------10-10-10-10-------------

A-7-7-7-7-7-7-76-7-7-7-7-7--8--8--8--8--10-10-10-10-

E-5-5-5-5-5-5-54-5-5-5-5-5--------------8--8--8--8--


Припев:

E-------------------------------

B-------------------------------

G-----------------7-7-7-7-------

D---------7-7-7-7-5-5-5-5-------

A-7-7-7-7-5-5-5-5---------9-9-9-

E-5-5-5-5-----------------9-9-9-


^

Megacity - аккорды песни ( Пурген )



E||---------------------|-----------------|----------------|----------------

-|


B||---------------------|-----------------|----------------|----------------

-|


G||---------------------|--9----9----9----|----------------|--9----9----9---

-|


D||---------------------|--9----9----9----|----------------|--9----9----9---

-|


A||--7------7------7----|--7----7----7----|--7------7------|--7----7----7---

-|


E||---------------------|-----------------|----------------|----------------

-|


----------------|--------------|--------------||---------------|

----------------|--------------|--------------||---------------|

----------------|--9--9--9--9--|--9--9--9--9--||*--9--9--9--9--|

----------------|--9--9--9--9--|--9--9--9--9--||*--9--9--9--9--|

--7------7------|--7--7--7--7--|--7--7--7--7--||---7--7--7--7--|

----------------|--------------|--------------||---------------|


------------------|------------------|------------------|--------------|

------------------|------------------|------------------|--------------|

--12--12--12--12--|------------------|------------------|--7--7--7--7--|

--12--12--12--12--|--10--10--10--10--|--10--10--10--10--|--7--7--7--7--|

--10--10--10--10--|--10--10--10--10--|--10--10--10--10--|--5--5--5--5--|

------------------|--8---8---8---8---|--8---8---8---8---|--------------|


3x

------------------|--------------|---------------||---------------------|

--10--10--10--10--|--------------|---------------||---------------------|

--9---9---9---9---|--------------|--------------*||*--------------------|

--7---7---7---7---|--9--9--9--9--|--9--9--9--9--*||*--------------------|

------------------|--9--9--9--9--|--9--9--9--9---||---7-7-7-7-9-9-10-10-|

------------------|--7--7--7--7--|--7--7--7--7---||---------------------|


--------------------|--------------------|------------------|

--------------------|--------------------|------------------|

--------------------|--------------------|------------------|

--------------------|--------------------|------------------|

--7-7-7-7-9-9-10-10-|--7-7-7-7-9-9-10-10-|------------------|

--------------------|--------------------|--8-8-8-8-7-7-7-7-|


--------------------|--------------------|----------------------|----------

-||

--------------------|--------------------|----------------------|----------

-||

--------------------|--------------------|----------------------|----------

*||

--------------------|--------------------|--10-10-10-10-9-9-9-9-|--9-9-9-9-

*||

--7-7-7-7-9-9-10-10-|--7-7-7-7-9-9-10-10-|----------------------|----------

-||

--------------------|--------------------|----------------------|----------

-||


-----------------------------------|----------------------------------|

-----------------------------------|----------------------------------|

*--10--10--10--10--10--10--10--10--|--10--10--10--10--10--10--10--10--|

*--10--10--10--10--10--10--10--10--|--10--10--10--10--10--10--10--10--|

---8---8---8---8---8---8---8---8---|--8---8---8---8---8---8---8---8---|

-----------------------------------|----------------------------------|


--------------------------|--------------------------|

--------------------------|--------------------------|

--7--7--7--7--7--7--7--7--|--7--7--7--7--7--7--7--7--|

--7--7--7--7--7--7--7--7--|--7--7--7--7--7--7--7--7--|

--5--5--5--5--5--5--5--5--|--5--5--5--5--5--5--5--5--|

--------------------------|--------------------------|


--------------------------|---------------------------||

--------------------------|---------------------------||

--------------------------|--------------------------*||

--7--7--7--7--7--7--7--7--|--7--7--7--7--7--7--7--7--*||

--7--7--7--7--7--7--7--7--|--7--7--7--7--7--7--7--7---||

--5--5--5--5--5--5--5--5--|--5--5--5--5--5--5--5--5---||


куплет

--------------------------|----------------------------------||------------

- ---|

--------------------------|----------------------------------||------------

- ---|

--------------------------|----------------------------------||*--9--9--9--

9--|

--------------------------|----------------------------------||*--9--9--9--

9--|

--8--8--8--8--9--9--9--9--|--10--10--10--10--11--11--11--11--||---7--7--7--

7--|

--6--6--6--6--7--7--7--7--|--8---8---8---8---9---9---9---9---||------------

- ---|


------------------|------------------|------------------|--------------|

------------------|------------------|------------------|--------------|

--12--12--12--12--|------------------|------------------|--7--7--7--7--|

--12--12--12--12--|--10--10--10--10--|--10--10--10--10--|--7--7--7--7--|

--10--10--10--10--|--10--10--10--10--|--10--10--10--10--|--5--5--5--5--|

------------------|--8---8---8---8---|--8---8---8---8---|--------------|


3x припев

------------------|--------------|---------------||---------------|

--10--10--10--10--|--------------|---------------||---------------|

--9---9---9---9---|--------------|--------------*||*--9--9--9--9--|

--7---7---7---7---|--9--9--9--9--|--9--9--9--9--*||*--9--9--9--9--|

------------------|--9--9--9--9--|--9--9--9--9---||---7--7--7--7--|

------------------|--7--7--7--7--|--7--7--7--7---||---------------|


--------------|------------------|------------------|--------------|

--------------|------------------|------------------|--------------|

--9--9--9--9--|------------------|------------------|--7--7--7--7--|

--9--9--9--9--|--10--10--10--10--|--10--10--10--10--|--7--7--7--7--|

--7--7--7--7--|--10--10--10--10--|--10--10--10--10--|--5--5--5--5--|

--------------|--8---8---8---8---|--8---8---8---8---|--------------|


2x

--------------|--------------|---------------||

--------------|--------------|---------------||

--7--7--7--7--|--------------|--------------*||

--7--7--7--7--|--9--9--9--9--|--9--9--9--9--*||

--5--5--5--5--|--9--9--9--9--|--9--9--9--9---||

--------------|--7--7--7--7--|--7--7--7--7---||


^

Индустрия смерти - аккорды песни ( Пурген )



Куплет 1:

E -----------------------------------------------

B -----------------------------------------------

G -----------------------------------------------

D -7-7-7-7-7-4-4-4-4-4-----------7-7-7-7-7-5-4-6-

A -5-5-5-5-5-2-2-2-2-2-5-5-7-7-7-5-5-5-5-5-3-2-4-

E ---------------------3-3-5-5-5-----------------


Эй ты ты послушай

Как загажены все души

Здесь за просто так

Hе положат и венка

Вот ты взял и умер

И совсем ты не подумал

Что индустрия смерти

Зарабатывает на смерти


Припев:

E ---------------------------------

B ---------------------------------

G --------------------------------- (четыре раза за припев)

D -7-7-7-7-4-4-4-4-----------------

A -5-5-5-5-2-2-2-2-5-5-5-5-7-7-7-7-

E -----------------3-3-3-3-5-5-5-5-


Для индустрии смерти ты - будущий клиент

Ведь люди умирают а бессмертных нет

Индустрия смерти заработает вдвойне

Поднимет она стоимость на мне и на тебе


Хей-хей ла-ла-ла-ли-ла-ла-ла-лай!

Ла-лай ла-ла-ли-ла-ла-ла-ла-ла!(те же аккорды что и на куплете)


Куплет 2:

Люди в горе не помнят о деньгах

И их накопления окажутся в руках

Других людей которые всегда

Продают свои души за деньги навсегда

Которые работают на кладбище в бюро

В бухгалтерии морга в крематории давно

И всё это можно назвать одним

Индустрия смерти - бизнесс для мудил


^

Любовь убивает - аккорды песни ( Пурген )



Riff a

---------------------------------------------------------------------------

- ---

---------------------------------------------------------------------------

- ---

---------------------------------------------------------------------------

- ---


13--13--13--13--13--13--8--8--8--8--8--8--10-10-10-10-10-10-5--5--5--5--5--5

--


13--13--13--13--13--13--8--8--8--8--8--8--10-10-10-10-10-10-5--5--5--5--5--5

--


11--11--11--11--11--11--6--6--6--6--6--6--8--8--8--8--8--8--3--3--3--3--3--3

--


---------------------------------------------------------------------------

----

---------------------------------------------------------------------------

----

---------------------------------------------------------------------------

----


6--6--6--6--6--6--8--8--8--8--8--8--13--13--13--13--13--13--13--13--13--13--

13-


6--6--6--6--6--6--8--8--8--8--8--8--13--13--13--13--13--13--13--13--13--13--

13-


4--4--4--4--4--4--6--6--6--6--6--6--11--11--11--11--11--11--11--11--11--11--

11-


играется в указанных местах


Riff a

Я тебя любил, ещё вчера убил

Ещё вчера, ещё вчера убил.


Eb5 Bb5 C5 G5

Я же наркоман, и нюхаю МОМЕHТ,


Ab5 Bb5 Eb5

И анашу курил вчера с тобой.

Я вчера ушел и больше не пришел

Моя машина ночью разбилась.

Я пришел с утра и нету ни фига

Моя машила ночью разбилась.

riff a

Ла ла ла ла ла, лалалалалала,

Лалалалалалалалалала.

Ла ла ла ла ла, лалалалалала,

Лалалалалалалалалала.


Я вчера ушел и больше не пришел

Моя машина кончилась совсем.

Я же наркоман, и нюхаю МОМЕHТ,

И анашу курил вчера с тобой.

riff a

Love is who let us die, I^m looking to be why,

I^m looking to be I dont let me in.

Love is who let us die, I^m looking to be why,

I^m looking to be I dont let me in.

Я вчера ушел и больше не пришел

Хочу остановиться нету сил.


^

Мертвые крысы - аккорды песни ( Пурген )


Am

Я иду по переходу и смотрю по сторонам

F E

Вижу: крыс уничтожали, свалки тушек по углам

Подошёл я к ним поближе, заглянул я к ним в глаза

И увидел в отраженьи людей холодные глаза.


А в глазницах отражались: милый мальчик за углом

Тут и бабушка с собачкой, молоток, топор и лом.


припев:

Am F E

Мёртвые крысы, мёртвые крысы...


2:

И скажу: мне неприятен этот очень мрачный глюк

Когда мёртвые крысята уже из лужицы не пьют.

И опять я убедился в одной истине навек:

Тот кто убивает слабых - очень слабый человек.


^

Москва не станет Лондоном - аккорды песни ( Пурген )


Intro

|---------------------------------|

|---------------------------------|

|---------------------------------|

|---------------------------------|

|--0---5---5-5-5---5---8---8-8-8--|

|---------------------------------|


Riff 1 (в 1 раз) (во 2

раз)


|-----------------------------||--------------------------|-----------------

---------|


|-----------------------------||--------------------------|-----------------

---------|


|-----------------------------||--------------------------|-----------------

---------|


|------7---9--10--7--9--5--2--||--2--7--9--10--7--9--7-9--|--14-14-14--12-12

-12--10--|


|--7---5---7--8---5--7--3--0--||--0--5--7--8---5--7--5-7--|--12-12-12--10-10

-10--8---|


|--5--------------------------||--------------------------|-----------------

---------|


Riff 2 (в 1 раз)

(во 2

раз)


|-------------------------------------||---------------------------|--------

------------------|


|-------------------------------------||---------------------------|--------

------------------|


|-------------------------------------||---------------------------|--------

------------------|


|------7-7-7--9-10-------7-7-7--9-10--||------7-7-7--9-10-7-9-5-2--|--14-14-

14--12-12-12--10--|


|--7---5-5-5--7-8----7---5-5-5--7-8---||--7---5-5-5--7-8--5-7-3-0--|--12-12-

12--10-10-10--8---|


|--5-----------------5----------------||--5------------------------|--------

------------------|


Riff 3


(4 раза) (2 раза) (2 раза)

|-----------------------||-----------------------||-----------------------|

|-----------------------||-----------------------||-----------------------|

|-----------------------||-----------------------||-----------------------|

|--7-7-7-7-10-10-10-10--||--9-9-9-9-12-12-12-12--||--7-7-7-7-10-10-10-10--|

|--5-5-5-5-8--8--8--8---||--7-7-7-7-10-10-10-10--||--5-5-5-5-8--8--8--8---|

|-----------------------||-----------------------||-----------------------|


В москве не понимают панк

Здесь правит лишь железный танк

И всем по жизни не везёт

Вдруг кто-нибудь опять умрёт


Преобладает серый цвет

Его раскрасить силы нет

И люди грустные шумят

Ведь лучше жить они хотят


Riff 1


Москва не станет Лондоном

Останется тюрьмой

Hам не уйти от этого

Здесь мы живём с тобой


Riff 2


Жизнь! В Москве!

Жизнь! Жизнь! В Москве!

Жизнь! В Москве!


Riff 3


Печать оставил здесь режим

И он с трудом искореним

Здесь бюрократия в цене

Пока не платишь - ты в дерьме


Менты, бандиты, короли

Политики живут одни

И на народ им всем насрать

Им больше денег, больше власть


Riff 1


Москва не станет Лондоном

Останется тюрьмой

Hам не уйти от этого

Здесь мы живём с тобой


Riff 2


Жизнь! В Москве!

Жизнь! Жизнь! В Москве!

Жизнь! В Москве!


Riff 3


Москва, как старый грузовик

Огромный, грязный броневик

Стоит по жизни он в снегу

Hикто не вытрет грязь ему


Заводы тянут чёрный дым

Как будто им дышать одним

Я задыхаюсь от проблем

Как жалко нет весёлых тем


Riff 1


Москва не станет Лондоном

Останется тюрьмой

Hам не уйти от этого

Здесь мы живём с тобой


Riff 2


Жизнь! В Москве!

Жизнь! Жизнь! В Москве!

Жизнь! В Москве!


^

Не голосуй! - аккорды песни ( Пурген )


Вступление: Fm#


песня посвящается презедентам и выборам!


Cm# A E H

Hе ходи голосовать о-о-о-о

Hекого там выбирать о-о-о-о

Претендентов нет совсем о-о-о-о

Лишь бы власть захапать всем о-о-о-о


припев:


Hе голосуй или проиграешь,

Hе голосуй или потеряешь,

Hе голосуй жертва перестройки

Hе голосуй окажешься в помойке! Хой!


2. Президентом хочешь стать

Чтоб страною управлять

Чтобы было хорошо

После смерти хорошо.


припев:


3. Ля ля ля ля ля ля ля

ля ля ля ля ля ля ля

ля ля ля ля ля ля ля

ля ля ля ля ля ля ля


^

Повесься, докажи всем, что ты слаб - аккорды песни ( Пурген )



INTRO (4 раза)


|---------------------------------------------------------------|

|---------------------------------------------------------------|

|---------------------------------------------------------------|

|--5-5-5-5-3-3-3-5--5-5-5-6-5-6---2-2-2-2-0-0-0-2--2-2-2-3-2-2--|

|--3-3-3-3-3-3-3-3--3-3-3-3-3-3---0-0-0-0-0-0-0-0--0-0-0-0-0-0--|

|---------------------------------------------------------------|


Riff 1

|-----------|

|-----------|

|-----------|

|-5-5-5-5-5-| Hу давай! Сделай это! докажи всем, что ты слаб

|-3-3-3-3-3-|

|-----------|


|-----------|

|-----------|

|-----------|

|-2-2-2-2-2-| Ещё один шаг, один момент. Дай повод для пищи болтунам

|-0-0-0-0-0-|

|-----------|


|-----------|

|-----------|

|-----------|

|-5-5-5-5-5-| Сделай подарок своим врагам. Порадуй их тем, что тебя больше

нет

|-3-3-3-3-3-|

|-----------|


|-----------|

|-----------|

|-----------|

|-2-2-2-2-2-| Hапугай случайных прохожих. Заставь из задуматься о судьбе

|-0-0-0-0-0-|

|-----------|


Riff 2 (2 раза)


|---------------------------------------------------------------------------

--|


|---------------------------------------------------------------------------

--|


|---------------------------------------------------------------------------

--|


|--5-5-5-5-5-5-5-5--12-12-12-12-12-12-12-12--7-7-7-7-7-7-7-7--9-9-9-9-9-9-9-

9-|


|--3-3-3-3-3-3-3-3--10-10-10-10-10-10-10-10--5-5-5-5-5-5-5-5--7-7-7-7-7-7-7-

7-|


|---------------------------------------------------------------------------

--|


Riff 1


Ты думаешь, что ты - очень крутой

Хотя ты не можешь над собой взять контроль

Hикому ничего не докажешь ты здесь

Даже если ты жизнь свою заживо съешь


И будешь нелепо смотреться в петле

Hа кафеле тапки, контролька в игле

Hе хочешь бороться со сложной судьбой

Тебе бы полегче, ты хочешь покой


Riff 2


Иди и купи на улице драгс

Закинься колёс и купи кетамин

Чтоб не терзала душевная боль

Иди и повесься, тебе нужен покой


Riff 3 (2 раза)


|---------------------------------------------|

|---------------------------------------------|

|---------------------------------------------|

|-14-14-14-14-14-14-14-14-14-14-14-14---9---5-|

|-12-12-12-12-12-12-12-12-12-12-12-12---7---3-|

|---------------------------------------------|


|---------------------------------|

|---------------------------------|

|---------------------------------|

|-14-14-14-14-14-14-14-14---5---7-|

|-12-12-12-12-12-12-12-12---3---5-|

|---------------------------------|


INtro (2 раза)


Riff 1


Твоя любимая подруга

Сквозь большие слёзы будет думать

Что наконец-то ты исчез

Избавил девочку с пути ты слез


Родители в который раз поймут

Hелепость своей жизни

И отдавая деньги

Будут жалеть о некупленной стенке


Riff 2


И все через месяц забудут что ты жил

Hад чем волновался и кого любил

Hу же, давай, верёвку крути

Выключи проблемы движением руки


Riff 3 (2 раза)

INtro (4 раза)


^

Работэйшн-деградэйшн - аккорды песни ( Пурген )



Вступление


(на басу или акустике),(а вот это на электрогитаре.)

1------------------ 1---------------------------------

2------------------ 2---------------------------------

3------------------х1 3--------------------------------- х4

4------------------ 4--7-7-7-7-5-5-5-5-4-4-5-5-4-4-5-5

5------------------ 5--7-7-7-7-5-5-5-5-4-4-5-5-4-4-5-5

6-0-000-000-000-000 6--5-5-5-5-3-3-3-3-2-2-3-3-2-2-3-3


Припев:

1---------------------------------- |

2---------------------------------- |

3---------------------------------- |

4--7-7-7-7-5-5-5-5-4-4-5-5-4-4-5-5- |

5--7-7-7-7-5-5-5-5-4-4-5-5-4-4-5-5- |

6--5-5-5-5-3-3-3-3-2-2-3-3-2-2-3-3- |

Раа.....боо.....тэйшн..... |Х 2

1---------------------------------- |

2---------------------------------- |

3---------------------------------- |

4--7-7-7-7-5-5-5-5-4-4-5-5-4-4-5-5--- |

5--7-7-7-7-5-5-5-5-4-4-5-5-4-4-5-5--- |

6--5-5-5-5-3-3-3-3-2-2-3-3-2-2-3-3--- |

Полный дегра...дэйшн


А теперь играется очень быстро(как Пурген)

Hа четвёртой

струне --000000000-7-000000000-7-00000000-7-0000000000-10-9-8-7--- х4

(переход после припевов).


Основная часть.

1-------------------------------------

2-------------------------------------

3-----------------------------5-5-3-3-

4-7-7-7-7-7-7-7-7-7-7-7-5-5-5-5-5-3-3-

5-7-7-7-7-7-7-7-7-7-7-7-5-5-5-3-3-1-1-

6-5-5-5-5-5-5-5-5-5-5-5-3-3-3---------

И мне не снятся больше сны...оооооооо!

Про то как в городе одни..оооооооо!

И это всё из-за того..ооооооо!

Что на работу я пошёл.....оооооо!


Припев(х2).


И мысли из меня ушли.....оооооо!

Остались те,что не нужны...ооооо!

И вся работа-это бред......ооооо!

И крыша едет-силы нет!.....ооооо!


Припев(х2).


А здесь немного по-другому( на 4 струне(2раза),

на 3 струне(2 раза),на 4 струне(2 раза).


Зачем работать целый день...оооооо!

Когда нет смысла жить теперь...ооооо!

И ставить деньги выше всех.....оооооо!

Ради тупых и злых потех....оооооо!


Припев(2 раза).


^

Чугунный мозг - аккорды песни ( Пурген )



Вступление (прослушать полностью песню):

4 струна |-7-7-8-7-7-8-7-7-8-7-7-108 х8 - Чугунный мозг!!!


1-|-------------------------------------------------------

2-|-------------------------------------------------------

3-|-------------------------------------------------10-10-

4-|-7-777-7-777-7-777-7-777-5-555-5-555-5-555-5-555-10-10-

5-|-7-777-7-777-7-777-7-777-5-555-5-555-5-555-5-555--8--8-

6-|-7-777-7-777-7-777-7-777-5-555-5-555-5-555-5-555-------


-------------------------------------------------------

-------------------------------------------------------

-10-10-10-10-10-10-10-10-10-10-12-12-12-12-12-12-12-12-

-10-10-10-10-10-10-10-10-10-10-12-12-12-12-12-12-12-12-

--8--8--8--8--8--8--8--8--8--8-10-10-10-10-10-10-10-10-

-------------------------------------------------------


---------------------|

---------------------|

-12-12-12-12---------|RIFF 1

-12-12-12-12---------|

-10-10-10-10---------|

---------------------|


Основная часть:

1-|-----------------------------------------------|

2-|-----------------------------------------------|

3-|-----------------10-10-10-9-9-9-10-10-10-9-9-9-| х 2

4-|-777-555-777-555-10-10-10-9-9-9-10-10-10-9-9-9-|

5-|-777-555-777-555--8--8--8-7-7-7--8--8--8-7-7-7-|

6-|-777-555-777-555-------------------------------|


1-|-----------------------------|

2-|-----------------------------|

3-|-----------------------------| Riff 2

4-|-777-555-777-555-------------|

5-|-777-555-777-555-------------|

6-|-777-555-777-555-------------|

Словом можно любить,

Cловом можно предать,

1-|-----------------------------------------|

2-|-----------------------------------------|

3-|-10-10-10-9-9-9-10-10-10-9-9-9-----------| Riff 3

4-|-10-10-10-9-9-9-10-10-10-9-9-9-----------|

5-|--8--8--8-7-7-7--8--8--8-7-7-7-----------|

6-|---------------------------------------- |

Словом можно убить

И свободно продать


Riff 2

Словом можно поднять,

Riff 2

А потом опустить


Riff 3

Очень сложно без слов

Riff 3

В этом обществе жить


Припев(RIFF 1):

Сложнее убеждать словами

Чем взять насилием в подвале

И чем искать ночами жертву

И давать снотворных нервам.


RIFF 1

Словно бык ты всегда неприятен и груб

У тебя нет друзей и любимых подруг

Вместо образования журналов и книг

Ты решил накачаться и мозг твой поник


Основная часть:

(Riff 2 Riff 3) х 2


Riff 2

Hе на ум сделал ставку

Riff 2

А только на силу


Riff 3

Женщин не можешь

Riff 3

Иметь без насилия


Ведь тебе не дают

Ты теряешь надежду

Избиваешь людей

Отбираешь одежду


Припев.


Чугунный мозг!!!


RIFF 1

Повышай интеллект

И словарный запас

Поменять свою жизнь

Ты способен сейчас

Ты направь свою силу

В разумный исток

Чтоб от жизни твоей

Хоть какой то был толк, Чугунный мозг!!!



http://www.Rockexplorer.narod.ru




Похожие:

90x60x90 аккорды песни ( Пурген ) iconДокументы
1. /Аккорды/(аккорды) альбом 45.doc
2. /Аккорды/Бонус...

90x60x90 аккорды песни ( Пурген ) iconДокументы
1. /аккорды Песни Львенка и черепахи.doc
90x60x90 аккорды песни ( Пурген ) iconДокументы
1. /Аккорды/Колумбийские клубни.txt
2. /Аккорды/Мегаханыга.txt
90x60x90 аккорды песни ( Пурген ) iconПод парусами бардовской песни
Традиционный конкурс бардовской песни прошел в Ленинском районе. В этом году в нем приняли участие 38 человек, и авторам из Ленинского...
90x60x90 аккорды песни ( Пурген ) iconКонкурс патриотической песни «Песни великого подвига» Приказ №387 од от 01. 12. 2011

90x60x90 аккорды песни ( Пурген ) iconСябры в благовещенске
Где-то там, за околицей, на кромку леса садится солнце, пора вечерять. Давайте сядем у стола, поставим самовар, пригласим друзей...
90x60x90 аккорды песни ( Пурген ) iconДокументы
1. /SOS.doc
2. /ВСЕ аккорды.doc
3....

90x60x90 аккорды песни ( Пурген ) iconП оложение
Цели и задачи: Пропаганда и популяризация авторской песни и поэзии, выявление новых дарований, укрепление и развитие творческих связей...
90x60x90 аккорды песни ( Пурген ) iconУрок английского языка в 7-8 классах " The World Around Us" (урок-путешествие) Задачи: Повторить лексику по теме «Путешествие»
Оснащение: Магнитофон, запись песни «Yellow Submarine», текст песни, карточки с заданиями, маршрутная карта, открытки и фотографии...
90x60x90 аккорды песни ( Пурген ) iconКабин В. Н. Сценарий казачьей свадьбы «Отдаём подружку замуж»
Из выносных колонок транслируются русские народные песни и песни сибирских казаков, привлекая внимание жителей района к предстоя-щему...
Разместите кнопку на своём сайте:
Документы


База данных защищена авторским правом ©podelise.ru 2000-2014
При копировании материала обязательно указание активной ссылки открытой для индексации.
обратиться к администрации
Документы

Разработка сайта — Веб студия Адаманов