1. Время есть, а денег нет icon

1. Время есть, а денег нет



Название1. Время есть, а денег нет
Дата конвертации02.07.2012
Размер121.42 Kb.
ТипДокументы
1. /Аккорды/(аккорды) альбом 45.doc
2. /Аккорды/Бонус трэки к альбомам(с аккордами).doc
3. /Аккорды/Очень неизвестные стихи и песни.doc
4. /Аккорды/Редкие песни.(аккорды).doc
5. /Аккорды/Соляки.doc
6. /Аккорды/Тексты песен альбома Blood Type.doc
7. /Аккорды/альбом 46(аккорды).doc
8. /Аккорды/альбом Альбом Акустический концерт(аккорды).doc
9. /Аккорды/альбом Альбом Начальник камчатки(аккорды).doc
10. /Аккорды/альбом Альбом Неизвестные песни(аккорды).doc
11. /Аккорды/альбом Альбом Ночь(аккорды).doc
12. /Аккорды/альбом Альбом Последний герой(аккорды).doc
13. /Аккорды/альбом Альбом Чёрный альбом (аккорды).doc
14. /Аккорды/альбом Альбом Это не любовь(аккорды).doc
15. /Аккорды/альбом Группа крови(аккорды).doc
16. /Аккорды/альбом Звезда по имени солнце(аккорды).doc
1. Время есть, а денег нет
Бонус треки к альбомам
Очень неизвестные песни и стихи
Редкие песни
45. Сказка. 46. Тралейбус
Альбом "Blood Type"
1. Троллейбус
Альбом"Акустический концерт"
Альбом"Начальник камчатки"
Альбом"Неизвестные песни"
Альбом "Ночь"
Альбом"Последний герой"
Альбом"кино(Чёрный альбом)"
Альбом"Это не любовь"
Альбом"Группа крови"
4. Сказка. Место для шага вперёд

Альбом”45”


1.Время есть, а денег нет.

2.Просто хочешь ты знать.

3.Алюминиевые огурцы.

4.Солнечные дни.

5.Бездельник.

6.Бездельник-2.

7.Электричка.

8.Восьмиклассница.

9.Мои друзья.

10.Ситар играл.

11.Дерево.

12.
Когда-то ты, ты был когда-то битником.

13.На кухне.

Бонус трек:

14.Я - асфальт.

1.Время есть, а денег нет.


Вариант 1. (Правильный)


Вступление:

e|-5-5-5-0-0-0-0-0-0-0-0-0-2-2-2-0-0-0-3-3-3-0-0-0-7-7-7-----|

b|-5-5-5-0-0-0-1-1-1-0-0-0-3-3-3-0-0-0-1-1-1-0-0-0-5-5-5-----|

g|-5-5-5-0-0-0-2-2-2-0-0-0-2-2-2-0-0-0-0-0-0-0-0-0-5-5-5-----|

d|-------------2-2-2-----------------------------------------|

Бас:

1|---------------------------------------------------

2|---------------------------------------------------

3|--------------------------------2-2----------------

4|--------------------------0-3-5-----5-3-5-3-2-2----

5|--0-3-5-0-0-3--0--3-5-0-3-----------------------0--

6|---------------------------------------------------

/Em Am Em/

Em

Дождь идёт с утра, будет, был и есть.

Am Em

И карман мой пуст, на часах - шесть.


Папирос нет и огня нет,

Am Em

И в окне знакомом не горит свет.


C

Время есть, а денег нет -

Em

И в гости некуда пойти.

Em

И куда-то все подевались вдруг

Am Em

Я попал в какой-то не такой круг.


Я хочу пить, я хочу есть,

Am Em

Я хочу просто где-нибудь сесть.


C

Время есть, а денег нет -

Em /C Em/

И в гости некуда пойти.


Вариант 2. (Неправильный)


Fm#

Дождь идет с утра будет был и есть

Hm D Fm#

И карман мой пуст на часах шесть

Папирос нет и огня нет

Hm D Fm#

И в окне знакомом не горит свет

D

Время есть а денег нет

Fm#

И в гости некуда пойти


2.Просто хочешь ты знать.


Вступление:

/G Cm Am D G A D G A D/


G Cm Am

Идёшь по улице один,

D G

Идёшь к кому-то из друзей.

Cm Am

Заходишь в гости без причин,

D G H E

И просишь свежих новосте-e-eй.

E A7

Просто хочешь ты знать

Cm G H E

Где и что происходит м-м.

E A7

Просто хочешь ты знать.

Cm G /G A D/

Где и что происходит


G Cm Am

Звонишь по телефону всем

D G

Кого-то нет, а кто-то здесь.

Cm Am

Для разговоров много тем,

D G H E

Для разговоров время е-e-eсть.


E A7

Просто хочешь ты знать

Cm G H E

Где и что происходит м-м.

E A7

Просто хочешь ты знать.

Cm G /G A D/

Где и что происходит.


G Cm Am

Узнал что где-то пьют вино,

D G

А где-то музыка слышна.

Cm Am

Тебя зовут туда где пьют,

D G H E

И ты берёшь ещё вина-а-а.


E A7

Просто хочешь ты знать

Cm G H E

Где и что происходит м-м.

E A7

Просто хочешь ты знать.

Cm G /G A D/

Где и что происходит.


G Cm Am

Там кто-то спор ведёт крутой,

D G

А кто-то просто спит давно.

Cm Am

И с кем-то рядом ты сидишь,

D G H E

И с кем-то вместе пьёшь вино-о-о.


E A7

Просто хочешь ты знать

Cm G H E

Где и что происходит м-м.

E A7

Просто хочешь ты знать.

Cm G H E

Где и что происходит м-м.

E A7

Просто хочешь ты знать…


3.Алюминиевые огурцы.


Встyпление:

e|-1-0----------------------

b|-----3-1-0---------------

g|------------2-0-----------

d|----------------3-2-0-0--

a|-------------------------3-


C Am

Здравствуйте девочки!

F G

Здравствуйте мальчики!

Смотрите на меня в окно

И мне кидайте свои пальчики да

Ведь я сажаю алюминиевые огурцы a-a

Hа брезентовом поле

Я сажаю алюминиевые огурцы a-a

Hа брезентовом поле


Три чукотских мудреца

Твердят твердят мне без конца:

"Металл не принесет плода

Игра не стоит свеч

А результат - труда"

Hо я сажаю алюминиевые огурцы а-а

Hа брезентовом поле

Я сажаю алюминиевые огурцы a-a

Hа брезентовом поле


Злое белое колено

Пытается меня достать

Колом колено колет вены

В надежде тайну разгадать - зачем

Я сажаю алюминиевые огурцы a-a

Hа брезентовом поле

Я сажаю алюминиевые огурцы a-a

Hа брезентовом поле


Кнопки скрепки клепки

Дырки булки вилки

Здесь тракторы пройдут мои

И упадут в копилку

Упадут туда

Где я сажаю алюминиевые огурцы a-a

Hа брезентовом поле

Я сажаю алюминиевые огурцы a-a

Hа брезентовом поле


4.Солнечные дни.


Для ритм-гитары:

Вступление:

e|--0---0--------3--2---0---0--------3--7---0---0--------3--2--2-2--4-2----3--2--0-------

h|---0-0-0---1--1--3----0-0-0---1--1--7-----0-0-0---1--1--3--3--3-----3---4--3--0--------

g|----0----0-2--2--4-----0----0--2--2--7------0----0-2--2--4--2---2-----2--5--4--0-------

d|------------2--2-4--------------2--2--9--------------2--2--4----------------5--4--2----

a|------------------2---------------------9--------------------2----------------3--2--2--

e|-0----------------2-0------------------7-0------------------2----------------3--2--0---


Для соло-гитары:

Вариант 1

1|----12----------12----------12-15-19-----

2|-12----12----12----12----12--------------

3|----------12----------12-----------------

4|-----------------------------------------


Вариант 2

(Играть флажонетами)

1|-12----------12--------------7-

2|---12-----12---12-----12--7----

3|-------12----------12----------

4|-------------------------------

Вариант 1. (Правильный)


Em Am Hm

Белая гадость лежит под окном

Я ношу шапку и шерстяные носки

Мне везде неуютно и пиво пить в лом (неуютен мой дом)

D C Hm

Как мне избавиться от этой тоски

Em Am Hm

По вам солнечные дни

Em Am Hm

Солнечные дни

Em Am Hm

Солнечные дни / D C Hm /


Мерзнут руки и ноги и негде сесть

Это время похоже на сплошную ночь

Хочется в теплую ванну залезть

Может быть это избавит меня от тоски

По вам солнечные дни

Солнечные дни

Солнечные дни


Я раздавлен зимою я болею и сплю

И порой я уверен что зима навсегда

Еще так долго до лета а я еле терплю

Hо может быть эта песня избавит меня от тоски

По вам солнечные дни

Солнечные дни

Солнечные дни


Вариант 2. (Неправильный)


Fm# Hm Cm#

Белая гадость лежит под окном,

Fm# Hm Cm#

Я ношу шапку и шерстяные носки.

Fm# Hm Cm#

Мне везде неуютно, и пиво пить в лом.

E D Cm#

Как мне избавиться от этой тоски

Fm# Hm Cm#

По вам, солнечные дни?

Fm# Hm Cm#

Солнечные дни.

Fm# Hm Cm#

Солнечные дни. /E D C#/


5.Бездельник.


Вариант 1. (Правильный)


Вступление:

1-2-2-2--2--2-2--2-2--2-2-2--2-2--0----0--0--0-0----------------------------

2-3-3-3--3--5-3--5-3--5-3-3--5-3--2----2--3--3-2----------------------------

3-2-2-2--2--2-2--2-2--2-2-2--2-2--2----2--2--2-2----------------------------

4-4-4-4--4--4-4--4-4--4-4-4--4-4--2----2--2--2-2----------------------------

5-2-2-2--2--2-2--2-2--2-2-2--2-2--0----0--0--0-0----------------------------

6---------------------------------------------------------------------------


1-2-2-2--2--2-2--2-2--2-2-2--2-2---/5--3--0^3-------------------------------

2-3-3-3--3--5-3--5-3--5-3-3--5-3---/5--3--0^3--3/5-3------------------------

3-2-2-2--2--2-2--2-2--2-2-2--2-2---------------2/4-2------------------------

4-4-4-4--4--4-4--4-4--4-4-4--4-4--------------------------------------------

5-2-2-2--2--2-2--2-2--2-2-2--2-2--------------------------------------------

6---------------------------------------------------------------------------


Hm A D A

Гуляю я один гуляю

Hm A Cm# Fm#

Что дальше делать я не знаю

Hm A D A

Hет дома никого нет дома

Hm A Cm# Fm# Cm# Fm#

Я лишний словно куча лома у-у

Hm A

Я бездельник о-о мама мама

Cm# Fm#

Я бездельник у-у

Hm A

Я бездельник о-о мама мама / Hm A /


В толпе я как иголка в сене

Я снова человек без цели

Болтаюсь целый день гуляю

Hе знаю я ничего не знаю у-у


Я бездельник о-о мама мама

Я бездельник у-у

Я бездельник о-о мама мама


Вариант 2. (Неправильный)


A G C G

Гуляю я один гуляю

Am G Hm Em

Что дальше делать я не знаю

A G C G

Hет дома никого нет дома

Am G Hm Em Hm Em

Я лишний словно куча лома у-у

Am G

Я бездельник о-о мама мама

Hm Em

Я бездельник у-у

Am G

Я бездельник о-о мама мама / Hm Em/

6.Бездельник-2.

Встyпление: Тyт встyпaет втоpaя гитapa нa октaвy выше.

||--------------1^3^1-0---5-3-------||--------------1^3^1-0---5-3----------

||----1-0-1-0-1---------3-----6-5-3-||----1-0-1-0-1---------3-----6-5-3----

||----2-0-2-0-2---------------------||----2-0-2-0-2------------------------

||----------------------------------||-------------------------------------

||-0--------------------------------||-0-----------------------------------

||----------------------------------||-------------------------------------

Дaлее пapтии чyть-чyть paзличaются.

|---5-3-5-----------5-3-5--------3----|---5-3-5-----------5-3-5--------3----|

|-----------5-3-5--------------3---3--|-----------5-3-5--------------3---3--|

|----------------------------0--------|----------------------------0--------|

|-------------------------------------|-------------------------------------|

|-0-------0-------0-------------------|-0-------0-------0-------------------|

|-------------------------------------|-------------------------------------|

| | |

|----------17-15-17-------------------|---17-15-17-------17-15-17--15-15----|

|--17-15-17--------17-15-17--15-15----|-----------17-15-17------------------|

|-------------------------------------|-------------------------------------|

|-------------------------------------|-------------------------------------|

|-------------------------------------|-------------------------------------|

|-------------------------------------|-------------------------------------|

После последней строчки куплета:

(Подбор А.Мармелюк)

1|------0-1-3-5-7-8---

2|--1-3---------------

3|--------------------

Am Em Am G

Hет меня дома целыми днями

C G F G

Занят бездельем играю словами

Am Em Am G

Каждое утро снова жизнь свою начинаю

C G F G

И ни черта ни в чем не понимаю

C Fm C

Я лишь начнется новый день

C G F G

Хожу отбрасываю тень с лицом нахала

C Fm C

Hаступит вечер я опять

C G F

Отправлюсь спать чтоб завтра встать

G

И все сначала

Hоги уносят мои руки и туловище

И голова отправляется следом

Словно с похмелья шагаю по улице я

Мозг переполнен сумбуром и бредом

Все говорят что надо кем-то мне становиться

А я хотел бы остаться собой

Мне стало трудно теперь просто разозлиться

И я иду поглощенный толпой

Я лишь начнется новый день

Хожу отбрасываю тень с лицом нахала

Hаступит вечер я опять

Отправлюсь спать чтоб завтра встать

И все сначала


7.Электричка.


Вариант 1.


e||---0--7--5--2-3-2-0------0----0-2-3-0-0---------------------|

b||-----------------------3-1----1--------------0-1----------------|

g||------------------------------------------------------------------|

d||------------------------------------------------------------------|

a||------------------------------------------------------------------|

e||------------------------------------------------------------------|


Басы:

3-----------------|---------------------------

4-----------------|---------------------------

5----------0-2-3--|----------0-1-2------------

6-0-0--0-3--------|-0-0--0-3------------------


С басом идут аккорды:Em и C

А после этого идёт такое:


1---3---3--3--4--3--4---

2---4---4--4--5--4--5---

3---3---3--3--4--3--4---

4----------------------- (4 раза)

5-----------------------

6-----------------------


Вариант 2.


Вступление:

||---------------------------------|

||----------0--------------0-------|

||.----h----0---------h----0------.|

||.--0 ^ 2--2--0----0 ^ 2--2--0---.|

||----------2--------------2-------|

||----------0--------------0-------|


Ритм гитара(Цой):

|-0--0--0--0--0--0--0--0-|-0--0--0--0--0--0--0--0-|

|-0--0--0--0--1--1--1--1-|-0--0--0--0--1--1--1--1-|

|-0--0--0--0--0--0--0--0-|-0--0--0--0--0--0--0--0-|

|-2--2--2--2--2--2--2--2-|-2--2--2--2--2--2--2--2-|

|-2--2--2--2--3--3--3--3-|-2--2--2--2--3--3--3--3-|

|-0--0--0--0--0--0--0--0-|-0--0--0--0--0--0--0--0-|


Соло гитара(Рыба):

|--------0(0)-0(0)-------|[12]---------12---------|

|--------4/5b-4/5b~~~----|---[12]---------13------|

|------------------------|------[12]---------12---|

|------------------------| |--Флажолеты. |

|------------------------|------------------------|

|------------------------|------------------------|


Барабаны (Драм машина):

|------------------------|--------------------------|

|-Бум---Бум---Бум---Бум--|-Бум---Бум---Бум---Бум----|

|------------------------|--------------------------|

|------------------------|--------------------------|

|------------------------|--------------------------|

|------------------------|--------------------------|


Em C Em C Em C Em C

Я вчера слишком поздно лег сегодня рано встал

Em C Em C Em C Em C

Я вчера слишком поздно лег я почти не спал

Em C Em C Em C Em C

Мне наверно с утра нужно было пойти к врачу

Em C Em C Em C Em C

А теперь электричка везет меня туда куда я не хочу

Em C Em C Em C Em C

Электричка везет меня туда куда я не хочу

Em C Em C Em C Em C

Электричка везет меня туда куда я не хочу


В тамбуре холодно и в то же время как-то тепло

В тамбуре накурено и в то же время как-то свежо

Почему я молчу почему не кричу молчу

Электричка везет меня туда куда я не хочу

Электричка везет меня туда куда я не хочу

Электричка везет меня туда куда я не хочу


8.Восьмиклассница.


Подыгрывается задним фоном:

e|--<5>---------------<12>---<5>---------------<5>------------------|

b|-----<5>----<5>---------------<5>----<5>-<5>----------------------|

g|--------<5>----------------------<5>------------------------------|


Соло.

e|---------------------------0--------------------------------------|

b|----0-1-0--------------------3-1--0---1-------0-1-0---------------|

g|--2----------2/4-----2----------------------2----------2/4----2---|

d|------------------------------------------------------------------|

a|------------------------------------------------------------------|

E|------------------------------------------------------------------|


e|------------------------------------------------------------------|

b|------0-----0-1---------------------------------------------------|

g|--0-2-----2-------------------------------------------------------|

d|------------------------------------------------------------------|

a|------------------------------------------------------------------|

E|------------------------------------------------------------------|


Am Em C G

Пустынной улицей вдвоем с тобой куда-то мы идем

F G C Am

И я курю а ты конфетки ешь

Am Em C G

И светят фонари давно ты говоришь: "Пойдем в кино"

F G C Am

А я тебя зову в кабак конечно

F G C Am

У-у восьмиклассница

F G

У-у... / Am Em /


Ты говоришь что у тебя по географии трояк

А мне на это просто наплевать

Ты говоришь из-за тебя там кто-то получил синяк

Многозначительно молчу и дальше мы идем гулять

У-у восьмиклассница

У-у...


Мамина помада сапоги старшей сестры

Мне легко с тобой а ты гордишься мной

Ты любишь своих кукол и воздушные шары

Hо в десять ровно мама ждет тебя домой

У-у восьмиклассница

У-у...


9.Мои друзья.


E|--3--3---2--2----0---0----3--2--0-------|-------------

H|--4---4--3---3---1----1------------3----|-------------

G|--5------4-------2----------------------|------------- Em

D|--5------4-------2----------------------|-------------

A|--3------2-------0----------------------|-------------

E|----------------------------------------|-------------

Вариант 1. (Правильный)


/Em Hm Am Em/

Em G Cm Hm Am Cm Em

Пришёл домой, и как всегда опять один.

G Cm Hm Am Cm D

Мой дом пустой, но зазвонит вдруг телефон,

Am Cm D Hm Cm

И будут в дверь стучать и с улицы кричать,

Hm Cm D Em /Em Hm Am Em/

Что хватит спать и пьяный голос скажет: «Дай пожрать».


Em D Em

Мои друзья всегда идут по жизни маршем,

D Hm Am Em /Em Hm Am Em/

И остановки только у пивных ларько-о-ов.

А это после припева:

E|--0-3-2-3-0-------

H|--------------3---

Em G Cm Hm Am Cm Em

Мой дом был пуст, теперь народу там полно.

G Cm Hm Am Cm D

В который раз, мои друзья там пьют вино.

Am Cm D Hm Cm Hm

И кто-то занял туалет уже давно, разбив окно,

Cm D Em /Em Hm Am Em/

А мне уже признаться всё равно.

Em D Em

Мои друзья всегда идут по жизни маршем,

D Hm Am Em /Em Hm Am Em/

И остановки только у пивных ларьков.

А я смеюсь хоть мне и не всегда смешно,

И очень злюсь, когда мне говорят

Что жить вот так как я сейчас нельзя.

Но почему? Ведь я живу, на это не ответить никому.

Мои друзья всегда идут по жизни маршем,

И остановки только у пивных ларько-о-ов.


Вариант 2. (Неправильный)

A D+1 Cm# Fm#

Пришел домой и как всегда опять один

A D+1

Мой дом пустой но зазвонит вдруг телефон

Hm D A D+1

И будут в дверь стучать и с улицы кричать

A Dm Cm# Dm Cm#

Что хватит спать и пьяный голос скажет: "Дай пожрать"

E Fm#

Мои друзья всегда идут по жизни маршем

E Cm# Hm Fm#

И останавки только у пивных ларьков

10.Ситар играл.


Вариант 1. (Правильный)


/C G F/

C G Am C

Ситар играл.

C F G

Джордж Харрисон, который очень любит деньги.

C F G

Послушал мантры и заторчал.

C F G

Купил билет на пароход и уехал в Дели,

F C G Am C

И в ушах его всё время, ситар играл.

C F G

Кто на нём играл? Чей это ситар?

C F G

На ситаре играл сам Рави Шанкнар.

C F G

Он сидел в позе лотоса на спине у слона,

F C G Am /C G F/

С ситаром в руках, ситар играл.


C G Am

Ситар играл.

C F G

Джордж Харрисон купил пар двадцать бус.

C F G

Джордж Харрисон сказал: «Я буду жить любя».

F G

А потом он сказал: «Гуд бай»,

C G Am

И ушёл в себя, ситар играл.

C G Am

Ситар играл.


Вариант 2. (Неправильный)


D A Hm D

Ситар играл...

G A D

Джордж Харрисон который очень любит деньги

G A D

Послушал мантры и заторчал

G A G

Купил билет на пароход и уехал в Дели

D A Hm

И в ушах его все время ситар играл


Кто на нем играл? Чей это ситар?

Hа ситаре играл сам Рави Шанкар

Он сидел в позе лотоса на спине у слона с ситаром в руках

Ситар играл


Джордж Харрисон купил пар двадцать бус

Джордж Харрисон сказал: "Я буду жить любя"

А потом он сказал: "Гуд бай" и ушел в себя

Ситар играл

11.Дерево.


|-----------------------------------------------------------------|

|-----0-----3----------0-----0----------3-----3----------0-----0--|

|---0-----0-----0----0-----0-----0----4-----4-----4----2-----0----|

|-2-----2-----2----0-----0-----0----5-----5-----5----4------------|

|----------------------------------------------------------2------|

|-----------------------------------------------------------------|

Вступление:

/Em D G H7/


Em D G H7

Я знаю моё дерево не проживёт и недели,

Em D G H7

Я знаю моё дерево в этом городе обречено.

Em D

Но я всё своё время провожу рядом с ним,

G H7

Мне все другие дела надоели.

Em D

Мне кажется, что это мой дом.

G H7

Мне кажется, что это мой друг.

Em D G H7

Я посадил дерево, я посадил дерево.

Em D G H7

Я посадил дерево, я посадил дерево.


Em D G H7

Я знаю моё дерево завтра может сломать школьник,

Em D G H7

Я знаю моё дерево скоро оставит меня.

Em D

Но пока оно есть я всегда рядом с ним.

G H7

Мне с ним радостно, мне с ним больно.

Em D

Мне кажется, что это мой мир,

G H7

Мне кажется, что это мой сын.

Em D G H7

Я посадил дерево, я посадил дерево.

Em D G H7 /Em D G H7 Em/

Я посадил дерево, я посадил дерево.


12.Когда-то ты, ты был когда-то битником.


Вступление:

/E G/


G E G E

Эй, где твои туфли на манной каше?

G A C E

И куда ты засунул свой двубортный пиджак?

G E G E

Спрячь подальше домашние тапки, папаша.

G H A

Ты ведь раньше не дал был бы за них и пятак.


E G E G

А когда-то ты был битником у-у-у

A C E G

Когда-то ты был битником у-у-у

E G E G

Когда-то ты был битником у-у-у.

H A E G /E G/

Когда-то ты, ты был когда-то битником.


G E G E

Ты готов был отдать душу за рок-н-ролл.

G A C E

Извлечённый из снимка чужой диафрагмы.

G E G E

А теперь телевизор, газета, футбол.

G H A

И довольна тобой твоя старая мама.


E G E G

А когда-то ты был битником у-у-у

A C E G

Когда-то ты был битником у-у-у

E G E G

Когда-то ты был битником у-у-у.

H A E G /E G/

Когда-то ты, ты был когда-то битником.


G E G E

Рок-н-ролльнное время ушло безвозвратно,

G A C E

Охладили седины твоей юности пыл.

G E G E

Но я верю, и верить мне в это приятно,

G H A

Что в душе ты остался таким же как был.


E G E G

А когда-то ты был битником у-у-у

A C E G

Когда-то ты был битником у-у-у

E G E G

Когда-то ты был битником у-у-у.

H A E G /E G E/

Когда-то ты, ты был когда-то битником.


13.На кухне.


G Em C Am Em D Hm Hm

E|-------|-------|-------|-----0-|------0|----2--|----2--|----2--|-

B|----0--|----0--|----1--|---01-1|----0--|3-----0|----3--|----3--|-

G|--0---0|--0---0|--0---0|--2----|--0----|--2----|--4---4|--4---4|-

D|-------|-------|-------|-------|-------|0------|-------|-------|-

A|-------|2------|3------|0------|-------|-------|2------|2------|-

E|3------|-------|-------|-------|0------|-------|-------|-------|-


G Hm C Am

Ночь. День. Спать лень.

Em D Hm

Есть дым, чёрт с ним.

G Hm C Am

Сна нет, есть сон лет.

Em D Hm

Кино, кончилось давно.


G Hm C Am

Мой дом, я в нём.

Em D Hm

Сижу, пень пнём.

G Hm C Am

Есть свет, сна нет.

Em D Hm

Есть ночь, уже уходит прочь.


G Hm C Am

Стоит таз, горит газ,

Em D Hm

Щелчок и газ погас.

G Hm C Am

Пора спать в кровать,

Em D Hm /G Hm C Am Em D Hm Em/

Вставать, завтра вставать.


Бонус трек:

14.Я - асфальт.


/Hm Am G F#m Em Hm Am G F#m/

Бас:

E|0-0-0-0|7-7-7-7|5-5-5-5|3-5-2-3|

(Если играть в две гитары с басом то нужно играть как Цой только аккорд Em всю песню)

Em Hm Am G F#m Em /Hm Am G F#m/

Вечер наступает медленнее, чем всегда

Em Hm Am G F#m Em /Hm Am G F#m/

Утром ночь затухает, как звезда

Em Hm Am G F#m Em /Hm Am G F#m/

Я начинаю день и конча-аю ночь

Em Hm Am G F#m

Двадцать четыре круга прочь

Em Hm Am G F#m

Двадцать четыре круга прочь

Em /Hm Am G F#m Em Hm Am G F#m/

Я - асфальт


Em Hm Am G F#m Em /Hm Am G F#m/

Я получил письмо от себя к себе

Em Hm Am G F#m Em /Hm Am G F#m/

Я получил чистый лист, он зовет к тебе

Em Hm Am G F#m Em /Hm Am G F#m/

Я не знаю, кто из вас мог бы мне помочь

Em Hm Am G F#m

Двадцать четыре круга прочь

Em Hm Am G F#m

Двадцать четыре круга прочь

Em /Hm Am G F#m Em Hm Am G F#m/

Я - асфальт

Em Hm Am G F#m Em /Hm Am G F#m/

Я свой сын, свой отец, свой друг, свой враг

Em Hm Am G F#m Em /Hm Am G F#m/

Я боюсь сделать этот последний шаг

Em Hm Am G F#m Em /Hm Am G F#m/

Уходи день, уходи уходи в ночь

Em Hm Am G F#m

Двадцать четыре круга прочь

Em Hm Am G F#m

Двадцать четыре круга прочь

Em /Hm Am G F#m Em Hm Am G F#m Em/

Я - асфальт




Похожие:

1. Время есть, а денег нет iconBea1944 www
Есть память, воспоминания, есть «следы прошлого» в настоящем, т е есть психологическое прошлое (прошлое как результат отражения,...
1. Время есть, а денег нет iconОкружная олимпиада
То есть подготовка учащихся носит системный характер. Теперь нам нет необходимости в горячее осеннее время собирать учителей только...
1. Время есть, а денег нет iconТинейджеры! Если вам уже четырнадцать, но нет еще восемнадцати; если вы учитесь и у вас есть желание поработать в свободное от учебы время эта информация
Если вам уже четырнадцать, но нет еще восемнадцати; если вы учитесь и у вас есть желание поработать в свободное от учебы время эта...
1. Время есть, а денег нет iconСоветские люди, действуйте! Время слёз, просьб, митингов, забастовок, голодовок кончилось! Пора действовать! Иначе – пропадём
Те, кто у «власти-кормушки», хорошо слышат Вас, но ничем(!) вам помочь не смогут – разрушители «не умеют» созидать. Забудьте о них!...
1. Время есть, а денег нет iconМинута час бережет. Шевцова Светлана Федоровна
«время – деньги». Впрочем, сегодня все чаще приходится слышать: время дороже денег. В известном смысле это справедливо: ну, потерял...
1. Время есть, а денег нет iconРезюме: экономическая феноменология денег
Вместе с тем отдельные формы функционального бытия денег выходят за пределы рынка. Это деньги как сокровища, фальшивые деньги и др....
1. Время есть, а денег нет iconЯнварь 2007 г. №1(12) Ежемесячная газета г. Барнаул
Новый год – время мечтать и надеяться. Время верить в то, что ничего невозможного нет!
1. Время есть, а денег нет iconВопросы к экзамену по дисциплине «Экономическая теория»
Развитие товарного обмена и возникновение денег. Функции денег. Закон денежного обращения
1. Время есть, а денег нет iconС утра прохладно, дождя нет. Собак меняю по времени. Сначала одна в утро, потом другая. Птенцы бекаса на крыле, но есть еще и кладки яиц у дупеля. Дома собаки ведут себя прилично, по постели не лазают
Вальдшнеп тянет прямо над домом. Скоро нужно смотреть выводки тетеревов. Грибов пока нет. Комаров и мошки стало меньше, уже по времени,...
1. Время есть, а денег нет iconС утра прохладно, дождя нет. Собак меняю по времени. Сначала одна в утро, потом другая. Птенцы бекаса на крыле, но есть еще и кладки яиц у дупеля. Дома собаки ведут себя прилично, по постели не лазают
Вальдшнеп тянет прямо над домом. Скоро нужно смотреть выводки тетеревов. Грибов пока нет. Комаров и мошки стало меньше, уже по времени,...
1. Время есть, а денег нет iconВремена, календари и болезни русского духа
Время есть постоянный фактор нашего бьггия. Но что такое время и всегда ли оно существовало?
Разместите кнопку на своём сайте:
Документы


База данных защищена авторским правом ©podelise.ru 2000-2014
При копировании материала обязательно указание активной ссылки открытой для индексации.
обратиться к администрации
Документы

Разработка сайта — Веб студия Адаманов